  0
SECTION
  2
HEADER
  9
$ACADVER
  1
AC1006
  9
$EXTMIN
 10
-2000.000000
 20
-2000.000000
 30
0.000000
  9
$EXTMAX
 10
2000.000000
 20
2000.000000
 30
0.000000
  9
$LIMMIN
 10
-2000.000000
 20
-2000.000000
  9
$LIMMAX
 10
2000.000000
 20
2000.000000
  9
$LTSCALE
 40
50.000000
  0
ENDSEC
  0
SECTION
  2
TABLES
  0
TABLE
  2
APPID
 70
1
  0
APPID
  2
ACAD
 70
1
  0
ENDTAB
  0
TABLE
  2
LTYPE
 70
1
  0
LTYPE
  2
CONTINUOUS
 70
0
  3
Solid line
 72
65
 73
0
 40
0.000000
  0
ENDTAB
  0
TABLE
  2
LAYER
 70
4
  0
LAYER
  2
0
 70
0
 62
7
  6
CONTINUOUS
  0
LAYER
  2
FLEXIT1
 70
0
 62
7
  6
CONTINUOUS
  0
LAYER
  2
FLEXIT2
 70
0
 62
7
  6
CONTINUOUS
  0
LAYER
  2
FLEXIT3
 70
0
 62
7
  6
CONTINUOUS
  0
ENDTAB
  0
TABLE
  2
STYLE
 70
0
  0
ENDTAB
  0
TABLE
  2
VPORT
 70
1
  0
VPORT
  2
*ACTIVE
 70
0
 10
0.000000
 20
0.000000
 11
1.000000
 21
1.000000
 12
1000.000000
 22
1000.000000
 13
0.000000
 23
0.000000
 14
1.000000
 24
1.000000
 15
0.000000
 25
0.000000
 16
0.000000
 26
0.000000
 36
1.000000
 17
0.000000
 27
0.000000
 37
0.000000
 40
5000.000000
 41
1.857143
 42
50.000000
 43
0.000000
 44
0.000000
 50
0.000000
 51
0.000000
 71
0
 72
0
 73
0
 74
0
 75
0
 76
0
 77
0
 78
0
  0
ENDTAB
  0
ENDSEC
  0
SECTION
  2
BLOCKS
  0
BLOCK
  8
0
  2
$MODEL_SPACE
 70
64
 10
0.000000
 20
0.000000
 30
0.000000
  3
$MODEL_SPACE
  0
ENDBLK
  0
BLOCK
  8
0
  2
$PAPER_SPACE
 70
64
 10
0.000000
 20
0.000000
 30
0.000000
  3
$PAPER_SPACE
  0
ENDBLK
  0
BLOCK
  8
0
  2
$PAPER_SPACE0
 70
64
 10
0.000000
 20
0.000000
 30
0.000000
  3
$PAPER_SPACE0
  0
ENDBLK
  0
BLOCK
  8
FLEXIT1
  2
FLEXIT_20140919105600_1
 70
64
 10
0.000000
 20
0.000000
 30
0.000000
  3
FLEXIT_20140919105600_1
  0
3DFACE
  8
FLEXIT3
  6
CONTINUOUS
 70
10
 10
-450.000000
 20
-268.500000
 30
350.000000
 11
450.000000
 21
-268.500000
 31
350.000000
 12
450.000000
 22
268.500000
 32
350.000000
 13
-450.000000
 23
268.500000
 33
350.000000
  0
3DFACE
  8
FLEXIT3
  6
CONTINUOUS
 70
5
 10
-450.000000
 20
-268.500000
 30
-350.000000
 11
-450.000000
 21
268.500000
 31
-350.000000
 12
450.000000
 22
268.500000
 32
-350.000000
 13
450.000000
 23
-268.500000
 33
-350.000000
  0
3DFACE
  8
FLEXIT3
  6
CONTINUOUS
 70
5
 10
-450.000000
 20
268.500000
 30
350.000000
 11
450.000000
 21
268.500000
 31
350.000000
 12
450.000000
 22
268.500000
 32
-350.000000
 13
-450.000000
 23
268.500000
 33
-350.000000
  0
3DFACE
  8
FLEXIT3
  6
CONTINUOUS
 70
10
 10
-450.000000
 20
-268.500000
 30
350.000000
 11
-450.000000
 21
-268.500000
 31
-350.000000
 12
450.000000
 22
-268.500000
 32
-350.000000
 13
450.000000
 23
-268.500000
 33
350.000000
  0
3DFACE
  8
FLEXIT3
  6
CONTINUOUS
 70
10
 10
-450.000000
 20
-268.500000
 30
350.000000
 11
-450.000000
 21
268.500000
 31
350.000000
 12
-450.000000
 22
268.500000
 32
-350.000000
 13
-450.000000
 23
-268.500000
 33
-350.000000
  0
3DFACE
  8
FLEXIT3
  6
CONTINUOUS
 70
5
 10
450.000000
 20
-268.500000
 30
350.000000
 11
450.000000
 21
-268.500000
 31
-350.000000
 12
450.000000
 22
268.500000
 32
-350.000000
 13
450.000000
 23
268.500000
 33
350.000000
  0
LINE
  8
FLEXIT3
  6
CONTINUOUS
 10
-450.010000
 20
-238.500000
 30
-350.000000
 11
-450.010000
 21
-238.500000
 31
350.000000
  0
LINE
  8
FLEXIT3
  6
CONTINUOUS
 10
450.010000
 20
-238.500000
 30
-350.000000
 11
450.010000
 21
-238.500000
 31
350.000000
  0
POLYLINE
  8
FLEXIT3
  6
CONTINUOUS
 70
41
 10
0.000000
 20
0.000000
 30
0.000000
 66
1
  0
VERTEX
  8
FLEXIT3
  6
CONTINUOUS
 70
32
 10
450.000000
 20
268.510000
 30
-350.000000
  0
VERTEX
  8
FLEXIT3
  6
CONTINUOUS
 70
32
 10
450.000000
 20
268.510000
 30
350.000000
  0
VERTEX
  8
FLEXIT3
  6
CONTINUOUS
 70
32
 10
-450.000000
 20
268.510000
 30
350.000000
  0
VERTEX
  8
FLEXIT3
  6
CONTINUOUS
 70
32
 10
-450.000000
 20
268.510000
 30
-350.000000
  0
SEQEND
  8
FLEXIT3
  6
CONTINUOUS
  0
POLYLINE
  8
FLEXIT3
  6
CONTINUOUS
 70
41
 10
0.000000
 20
0.000000
 30
0.000000
 66
1
  0
VERTEX
  8
FLEXIT3
  6
CONTINUOUS
 70
32
 10
90.000000
 20
268.510000
 30
-350.000000
  0
VERTEX
  8
FLEXIT3
  6
CONTINUOUS
 70
32
 10
90.000000
 20
268.510000
 30
70.000000
  0
VERTEX
  8
FLEXIT3
  6
CONTINUOUS
 70
32
 10
-90.000000
 20
268.510000
 30
70.000000
  0
VERTEX
  8
FLEXIT3
  6
CONTINUOUS
 70
32
 10
-90.000000
 20
268.510000
 30
-350.000000
  0
SEQEND
  8
FLEXIT3
  6
CONTINUOUS
  0
CIRCLE
  8
FLEXIT3
  6
CONTINUOUS
 10
0.000000
 20
-140.000000
 30
268.510000
 40
72.000000
210
0.000000
220
1.000000
230
0.000000
  0
LINE
  8
FLEXIT3
  6
CONTINUOUS
 10
-50.911688
 20
268.510000
 30
-89.088312
 11
50.911688
 21
268.510000
 31
-190.911688
  0
LINE
  8
FLEXIT3
  6
CONTINUOUS
 10
-7.455844
 20
268.510000
 30
-165.455844
 11
-43.455844
 21
268.510000
 31
-165.455844
  0
LINE
  8
FLEXIT3
  6
CONTINUOUS
 10
43.455844
 20
268.510000
 30
-122.000000
 11
7.455844
 21
268.510000
 31
-122.000000
  0
LINE
  8
FLEXIT3
  6
CONTINUOUS
 10
25.455844
 20
268.510000
 30
-140.000000
 11
25.455844
 21
268.510000
 31
-104.000000
  0
LINE
  8
FLEXIT3
  6
CONTINUOUS
 10
90.000000
 20
268.510000
 30
49.000000
 11
-90.000000
 21
268.510000
 31
49.000000
  0
LINE
  8
FLEXIT3
  6
CONTINUOUS
 10
90.000000
 20
268.510000
 30
28.000000
 11
-90.000000
 21
268.510000
 31
28.000000
  0
LINE
  8
FLEXIT3
  6
CONTINUOUS
 10
90.000000
 20
268.510000
 30
7.000000
 11
-90.000000
 21
268.510000
 31
7.000000
  0
LINE
  8
FLEXIT3
  6
CONTINUOUS
 10
90.000000
 20
268.510000
 30
-14.000000
 11
-90.000000
 21
268.510000
 31
-14.000000
  0
LINE
  8
FLEXIT3
  6
CONTINUOUS
 10
90.000000
 20
268.510000
 30
-35.000000
 11
-90.000000
 21
268.510000
 31
-35.000000
  0
LINE
  8
FLEXIT3
  6
CONTINUOUS
 10
90.000000
 20
268.510000
 30
-56.000000
 11
-90.000000
 21
268.510000
 31
-56.000000
  0
LINE
  8
FLEXIT3
  6
CONTINUOUS
 10
90.000000
 20
268.510000
 30
-77.000000
 11
34.856850
 21
268.510000
 31
-77.000000
  0
LINE
  8
FLEXIT3
  6
CONTINUOUS
 10
-34.856850
 20
268.510000
 30
-77.000000
 11
-90.000000
 21
268.510000
 31
-77.000000
  0
LINE
  8
FLEXIT3
  6
CONTINUOUS
 10
90.000000
 20
268.510000
 30
-98.000000
 11
58.480766
 21
268.510000
 31
-98.000000
  0
LINE
  8
FLEXIT3
  6
CONTINUOUS
 10
-58.480766
 20
268.510000
 30
-98.000000
 11
-90.000000
 21
268.510000
 31
-98.000000
  0
LINE
  8
FLEXIT3
  6
CONTINUOUS
 10
90.000000
 20
268.510000
 30
-119.000000
 11
68.869442
 21
268.510000
 31
-119.000000
  0
LINE
  8
FLEXIT3
  6
CONTINUOUS
 10
-68.869442
 20
268.510000
 30
-119.000000
 11
-90.000000
 21
268.510000
 31
-119.000000
  0
LINE
  8
FLEXIT3
  6
CONTINUOUS
 10
90.000000
 20
268.510000
 30
-140.000000
 11
72.000000
 21
268.510000
 31
-140.000000
  0
LINE
  8
FLEXIT3
  6
CONTINUOUS
 10
-72.000000
 20
268.510000
 30
-140.000000
 11
-90.000000
 21
268.510000
 31
-140.000000
  0
LINE
  8
FLEXIT3
  6
CONTINUOUS
 10
90.000000
 20
268.510000
 30
-161.000000
 11
68.869442
 21
268.510000
 31
-161.000000
  0
LINE
  8
FLEXIT3
  6
CONTINUOUS
 10
-68.869442
 20
268.510000
 30
-161.000000
 11
-90.000000
 21
268.510000
 31
-161.000000
  0
LINE
  8
FLEXIT3
  6
CONTINUOUS
 10
90.000000
 20
268.510000
 30
-182.000000
 11
58.480766
 21
268.510000
 31
-182.000000
  0
LINE
  8
FLEXIT3
  6
CONTINUOUS
 10
-58.480766
 20
268.510000
 30
-182.000000
 11
-90.000000
 21
268.510000
 31
-182.000000
  0
LINE
  8
FLEXIT3
  6
CONTINUOUS
 10
90.000000
 20
268.510000
 30
-203.000000
 11
34.856850
 21
268.510000
 31
-203.000000
  0
LINE
  8
FLEXIT3
  6
CONTINUOUS
 10
-34.856850
 20
268.510000
 30
-203.000000
 11
-90.000000
 21
268.510000
 31
-203.000000
  0
LINE
  8
FLEXIT3
  6
CONTINUOUS
 10
90.000000
 20
268.510000
 30
-224.000000
 11
-90.000000
 21
268.510000
 31
-224.000000
  0
LINE
  8
FLEXIT3
  6
CONTINUOUS
 10
90.000000
 20
268.510000
 30
-245.000000
 11
-90.000000
 21
268.510000
 31
-245.000000
  0
LINE
  8
FLEXIT3
  6
CONTINUOUS
 10
90.000000
 20
268.510000
 30
-266.000000
 11
-90.000000
 21
268.510000
 31
-266.000000
  0
LINE
  8
FLEXIT3
  6
CONTINUOUS
 10
90.000000
 20
268.510000
 30
-287.000000
 11
-90.000000
 21
268.510000
 31
-287.000000
  0
LINE
  8
FLEXIT3
  6
CONTINUOUS
 10
90.000000
 20
268.510000
 30
-308.000000
 11
-90.000000
 21
268.510000
 31
-308.000000
  0
LINE
  8
FLEXIT3
  6
CONTINUOUS
 10
90.000000
 20
268.510000
 30
-329.000000
 11
-90.000000
 21
268.510000
 31
-329.000000
  0
LINE
  8
FLEXIT3
  6
CONTINUOUS
 10
0.000000
 20
268.510000
 30
350.000000
 11
0.000000
 21
268.510000
 31
70.000000
  0
LINE
  8
FLEXIT3
  6
CONTINUOUS
 10
-225.000000
 20
268.510000
 30
350.000000
 11
-225.000000
 21
268.510000
 31
-140.000000
  0
LINE
  8
FLEXIT3
  6
CONTINUOUS
 10
225.000000
 20
268.510000
 30
350.000000
 11
225.000000
 21
268.510000
 31
-140.000000
  0
LINE
  8
FLEXIT3
  6
CONTINUOUS
 10
-225.000000
 20
268.510000
 30
-140.000000
 11
-90.000000
 21
268.510000
 31
-140.000000
  0
LINE
  8
FLEXIT3
  6
CONTINUOUS
 10
225.000000
 20
268.510000
 30
-140.000000
 11
90.000000
 21
268.510000
 31
-140.000000
  0
POLYLINE
  8
FLEXIT3
  6
CONTINUOUS
 70
41
 10
0.000000
 20
0.000000
 30
0.000000
 66
1
  0
VERTEX
  8
FLEXIT3
  6
CONTINUOUS
 70
32
 10
-90.000000
 20
268.510000
 30
-350.000000
  0
VERTEX
  8
FLEXIT3
  6
CONTINUOUS
 70
32
 10
-90.000000
 20
268.510000
 30
-140.000000
  0
VERTEX
  8
FLEXIT3
  6
CONTINUOUS
 70
32
 10
-180.000000
 20
268.510000
 30
-140.000000
  0
VERTEX
  8
FLEXIT3
  6
CONTINUOUS
 70
32
 10
-180.000000
 20
268.510000
 30
-350.000000
  0
SEQEND
  8
FLEXIT3
  6
CONTINUOUS
  0
LINE
  8
FLEXIT3
  6
CONTINUOUS
 10
-90.000000
 20
268.510000
 30
-350.000000
 11
-180.000000
 21
268.510000
 31
-297.500000
  0
LINE
  8
FLEXIT3
  6
CONTINUOUS
 10
-90.000000
 20
268.510000
 30
-245.000000
 11
-180.000000
 21
268.510000
 31
-297.500000
  0
LINE
  8
FLEXIT3
  6
CONTINUOUS
 10
-90.000000
 20
268.510000
 30
-245.000000
 11
-180.000000
 21
268.510000
 31
-192.500000
  0
LINE
  8
FLEXIT3
  6
CONTINUOUS
 10
-90.000000
 20
268.510000
 30
-140.000000
 11
-180.000000
 21
268.510000
 31
-192.500000
  0
POLYLINE
  8
FLEXIT3
  6
CONTINUOUS
 70
41
 10
0.000000
 20
0.000000
 30
0.000000
 66
1
  0
VERTEX
  8
FLEXIT3
  6
CONTINUOUS
 70
32
 10
180.000000
 20
268.510000
 30
-140.000000
  0
VERTEX
  8
FLEXIT3
  6
CONTINUOUS
 70
32
 10
180.000000
 20
268.510000
 30
70.000000
  0
VERTEX
  8
FLEXIT3
  6
CONTINUOUS
 70
32
 10
90.000000
 20
268.510000
 30
70.000000
  0
VERTEX
  8
FLEXIT3
  6
CONTINUOUS
 70
32
 10
90.000000
 20
268.510000
 30
-140.000000
  0
SEQEND
  8
FLEXIT3
  6
CONTINUOUS
  0
LINE
  8
FLEXIT3
  6
CONTINUOUS
 10
180.000000
 20
268.510000
 30
-140.000000
 11
90.000000
 21
268.510000
 31
-87.500000
  0
LINE
  8
FLEXIT3
  6
CONTINUOUS
 10
180.000000
 20
268.510000
 30
-35.000000
 11
90.000000
 21
268.510000
 31
-87.500000
  0
LINE
  8
FLEXIT3
  6
CONTINUOUS
 10
180.000000
 20
268.510000
 30
-35.000000
 11
90.000000
 21
268.510000
 31
17.500000
  0
LINE
  8
FLEXIT3
  6
CONTINUOUS
 10
180.000000
 20
268.510000
 30
70.000000
 11
90.000000
 21
268.510000
 31
17.500000
  0
POLYLINE
  8
FLEXIT3
  6
CONTINUOUS
 70
41
 10
0.000000
 20
0.000000
 30
0.000000
 66
1
  0
VERTEX
  8
FLEXIT3
  6
CONTINUOUS
 70
32
 10
0.000000
 20
268.510000
 30
350.000000
  0
VERTEX
  8
FLEXIT3
  6
CONTINUOUS
 70
32
 10
-225.000000
 20
268.510000
 30
350.000000
  0
VERTEX
  8
FLEXIT3
  6
CONTINUOUS
 70
32
 10
-225.000000
 20
268.510000
 30
262.500000
  0
VERTEX
  8
FLEXIT3
  6
CONTINUOUS
 70
32
 10
0.000000
 20
268.510000
 30
262.500000
  0
SEQEND
  8
FLEXIT3
  6
CONTINUOUS
  0
CIRCLE
  8
FLEXIT3
  6
CONTINUOUS
 10
112.500000
 20
306.250000
 30
268.510000
 40
32.812500
210
0.000000
220
1.000000
230
0.000000
  0
LINE
  8
FLEXIT3
  6
CONTINUOUS
 10
-112.500000
 20
268.510000
 30
328.125000
 11
-112.500000
 21
268.510000
 31
284.375000
  0
LINE
  8
FLEXIT3
  6
CONTINUOUS
 10
-90.625000
 20
268.510000
 30
306.250000
 11
-134.375000
 21
268.510000
 31
306.250000
  0
POLYLINE
  8
FLEXIT3
  6
CONTINUOUS
 70
41
 10
0.000000
 20
0.000000
 30
0.000000
 66
1
  0
VERTEX
  8
FLEXIT3
  6
CONTINUOUS
 70
32
 10
-225.000000
 20
268.510000
 30
87.500000
  0
VERTEX
  8
FLEXIT3
  6
CONTINUOUS
 70
32
 10
0.000000
 20
268.510000
 30
87.500000
  0
VERTEX
  8
FLEXIT3
  6
CONTINUOUS
 70
32
 10
0.000000
 20
268.510000
 30
262.500000
  0
VERTEX
  8
FLEXIT3
  6
CONTINUOUS
 70
32
 10
-225.000000
 20
268.510000
 30
262.500000
  0
SEQEND
  8
FLEXIT3
  6
CONTINUOUS
  0
CIRCLE
  8
FLEXIT3
  6
CONTINUOUS
 10
112.500000
 20
175.000000
 30
268.510000
 40
65.625000
210
0.000000
220
1.000000
230
0.000000
  0
LINE
  8
FLEXIT3
  6
CONTINUOUS
 10
-112.500000
 20
268.510000
 30
240.625000
 11
-55.667083
 21
268.510000
 31
142.187500
  0
LINE
  8
FLEXIT3
  6
CONTINUOUS
 10
-55.667083
 20
268.510000
 30
142.187500
 11
-169.332917
 21
268.510000
 31
142.187500
  0
LINE
  8
FLEXIT3
  6
CONTINUOUS
 10
-169.332917
 20
268.510000
 30
142.187500
 11
-112.500000
 21
268.510000
 31
240.625000
  0
POLYLINE
  8
FLEXIT3
  6
CONTINUOUS
 70
41
 10
0.000000
 20
0.000000
 30
0.000000
 66
1
  0
VERTEX
  8
FLEXIT3
  6
CONTINUOUS
 70
32
 10
225.000000
 20
268.510000
 30
87.500000
  0
VERTEX
  8
FLEXIT3
  6
CONTINUOUS
 70
32
 10
450.000000
 20
268.510000
 30
87.500000
  0
VERTEX
  8
FLEXIT3
  6
CONTINUOUS
 70
32
 10
450.000000
 20
268.510000
 30
262.500000
  0
VERTEX
  8
FLEXIT3
  6
CONTINUOUS
 70
32
 10
225.000000
 20
268.510000
 30
262.500000
  0
SEQEND
  8
FLEXIT3
  6
CONTINUOUS
  0
CIRCLE
  8
FLEXIT3
  6
CONTINUOUS
 10
-337.500000
 20
175.000000
 30
268.510000
 40
65.625000
210
0.000000
220
1.000000
230
0.000000
  0
LINE
  8
FLEXIT3
  6
CONTINUOUS
 10
337.500000
 20
268.510000
 30
240.625000
 11
394.332917
 21
268.510000
 31
142.187500
  0
LINE
  8
FLEXIT3
  6
CONTINUOUS
 10
394.332917
 20
268.510000
 30
142.187500
 11
280.667083
 21
268.510000
 31
142.187500
  0
LINE
  8
FLEXIT3
  6
CONTINUOUS
 10
280.667083
 20
268.510000
 30
142.187500
 11
337.500000
 21
268.510000
 31
240.625000
  0
POLYLINE
  8
FLEXIT3
  6
CONTINUOUS
 70
41
 10
0.000000
 20
0.000000
 30
0.000000
 66
1
  0
VERTEX
  8
FLEXIT3
  6
CONTINUOUS
 70
32
 10
450.000000
 20
-268.510000
 30
-350.000000
  0
VERTEX
  8
FLEXIT3
  6
CONTINUOUS
 70
32
 10
450.000000
 20
-268.510000
 30
350.000000
  0
VERTEX
  8
FLEXIT3
  6
CONTINUOUS
 70
32
 10
-450.000000
 20
-268.510000
 30
350.000000
  0
VERTEX
  8
FLEXIT3
  6
CONTINUOUS
 70
32
 10
-450.000000
 20
-268.510000
 30
-350.000000
  0
SEQEND
  8
FLEXIT3
  6
CONTINUOUS
  0
POLYLINE
  8
FLEXIT3
  6
CONTINUOUS
 70
41
 10
0.000000
 20
0.000000
 30
0.000000
 66
1
  0
VERTEX
  8
FLEXIT3
  6
CONTINUOUS
 70
32
 10
90.000000
 20
-268.510000
 30
-350.000000
  0
VERTEX
  8
FLEXIT3
  6
CONTINUOUS
 70
32
 10
90.000000
 20
-268.510000
 30
70.000000
  0
VERTEX
  8
FLEXIT3
  6
CONTINUOUS
 70
32
 10
-90.000000
 20
-268.510000
 30
70.000000
  0
VERTEX
  8
FLEXIT3
  6
CONTINUOUS
 70
32
 10
-90.000000
 20
-268.510000
 30
-350.000000
  0
SEQEND
  8
FLEXIT3
  6
CONTINUOUS
  0
CIRCLE
  8
FLEXIT3
  6
CONTINUOUS
 10
0.000000
 20
-140.000000
 30
-268.510000
 40
72.000000
210
0.000000
220
1.000000
230
0.000000
  0
LINE
  8
FLEXIT3
  6
CONTINUOUS
 10
-50.911688
 20
-268.510000
 30
-89.088312
 11
50.911688
 21
-268.510000
 31
-190.911688
  0
LINE
  8
FLEXIT3
  6
CONTINUOUS
 10
-7.455844
 20
-268.510000
 30
-165.455844
 11
-43.455844
 21
-268.510000
 31
-165.455844
  0
LINE
  8
FLEXIT3
  6
CONTINUOUS
 10
43.455844
 20
-268.510000
 30
-122.000000
 11
7.455844
 21
-268.510000
 31
-122.000000
  0
LINE
  8
FLEXIT3
  6
CONTINUOUS
 10
25.455844
 20
-268.510000
 30
-140.000000
 11
25.455844
 21
-268.510000
 31
-104.000000
  0
LINE
  8
FLEXIT3
  6
CONTINUOUS
 10
90.000000
 20
-268.510000
 30
49.000000
 11
-90.000000
 21
-268.510000
 31
49.000000
  0
LINE
  8
FLEXIT3
  6
CONTINUOUS
 10
90.000000
 20
-268.510000
 30
28.000000
 11
-90.000000
 21
-268.510000
 31
28.000000
  0
LINE
  8
FLEXIT3
  6
CONTINUOUS
 10
90.000000
 20
-268.510000
 30
7.000000
 11
-90.000000
 21
-268.510000
 31
7.000000
  0
LINE
  8
FLEXIT3
  6
CONTINUOUS
 10
90.000000
 20
-268.510000
 30
-14.000000
 11
-90.000000
 21
-268.510000
 31
-14.000000
  0
LINE
  8
FLEXIT3
  6
CONTINUOUS
 10
90.000000
 20
-268.510000
 30
-35.000000
 11
-90.000000
 21
-268.510000
 31
-35.000000
  0
LINE
  8
FLEXIT3
  6
CONTINUOUS
 10
90.000000
 20
-268.510000
 30
-56.000000
 11
-90.000000
 21
-268.510000
 31
-56.000000
  0
LINE
  8
FLEXIT3
  6
CONTINUOUS
 10
90.000000
 20
-268.510000
 30
-77.000000
 11
34.856850
 21
-268.510000
 31
-77.000000
  0
LINE
  8
FLEXIT3
  6
CONTINUOUS
 10
-34.856850
 20
-268.510000
 30
-77.000000
 11
-90.000000
 21
-268.510000
 31
-77.000000
  0
LINE
  8
FLEXIT3
  6
CONTINUOUS
 10
90.000000
 20
-268.510000
 30
-98.000000
 11
58.480766
 21
-268.510000
 31
-98.000000
  0
LINE
  8
FLEXIT3
  6
CONTINUOUS
 10
-58.480766
 20
-268.510000
 30
-98.000000
 11
-90.000000
 21
-268.510000
 31
-98.000000
  0
LINE
  8
FLEXIT3
  6
CONTINUOUS
 10
90.000000
 20
-268.510000
 30
-119.000000
 11
68.869442
 21
-268.510000
 31
-119.000000
  0
LINE
  8
FLEXIT3
  6
CONTINUOUS
 10
-68.869442
 20
-268.510000
 30
-119.000000
 11
-90.000000
 21
-268.510000
 31
-119.000000
  0
LINE
  8
FLEXIT3
  6
CONTINUOUS
 10
90.000000
 20
-268.510000
 30
-140.000000
 11
72.000000
 21
-268.510000
 31
-140.000000
  0
LINE
  8
FLEXIT3
  6
CONTINUOUS
 10
-72.000000
 20
-268.510000
 30
-140.000000
 11
-90.000000
 21
-268.510000
 31
-140.000000
  0
LINE
  8
FLEXIT3
  6
CONTINUOUS
 10
90.000000
 20
-268.510000
 30
-161.000000
 11
68.869442
 21
-268.510000
 31
-161.000000
  0
LINE
  8
FLEXIT3
  6
CONTINUOUS
 10
-68.869442
 20
-268.510000
 30
-161.000000
 11
-90.000000
 21
-268.510000
 31
-161.000000
  0
LINE
  8
FLEXIT3
  6
CONTINUOUS
 10
90.000000
 20
-268.510000
 30
-182.000000
 11
58.480766
 21
-268.510000
 31
-182.000000
  0
LINE
  8
FLEXIT3
  6
CONTINUOUS
 10
-58.480766
 20
-268.510000
 30
-182.000000
 11
-90.000000
 21
-268.510000
 31
-182.000000
  0
LINE
  8
FLEXIT3
  6
CONTINUOUS
 10
90.000000
 20
-268.510000
 30
-203.000000
 11
34.856850
 21
-268.510000
 31
-203.000000
  0
LINE
  8
FLEXIT3
  6
CONTINUOUS
 10
-34.856850
 20
-268.510000
 30
-203.000000
 11
-90.000000
 21
-268.510000
 31
-203.000000
  0
LINE
  8
FLEXIT3
  6
CONTINUOUS
 10
90.000000
 20
-268.510000
 30
-224.000000
 11
-90.000000
 21
-268.510000
 31
-224.000000
  0
LINE
  8
FLEXIT3
  6
CONTINUOUS
 10
90.000000
 20
-268.510000
 30
-245.000000
 11
-90.000000
 21
-268.510000
 31
-245.000000
  0
LINE
  8
FLEXIT3
  6
CONTINUOUS
 10
90.000000
 20
-268.510000
 30
-266.000000
 11
-90.000000
 21
-268.510000
 31
-266.000000
  0
LINE
  8
FLEXIT3
  6
CONTINUOUS
 10
90.000000
 20
-268.510000
 30
-287.000000
 11
-90.000000
 21
-268.510000
 31
-287.000000
  0
LINE
  8
FLEXIT3
  6
CONTINUOUS
 10
90.000000
 20
-268.510000
 30
-308.000000
 11
-90.000000
 21
-268.510000
 31
-308.000000
  0
LINE
  8
FLEXIT3
  6
CONTINUOUS
 10
90.000000
 20
-268.510000
 30
-329.000000
 11
-90.000000
 21
-268.510000
 31
-329.000000
  0
LINE
  8
FLEXIT3
  6
CONTINUOUS
 10
0.000000
 20
-268.510000
 30
350.000000
 11
0.000000
 21
-268.510000
 31
70.000000
  0
LINE
  8
FLEXIT3
  6
CONTINUOUS
 10
-225.000000
 20
-268.510000
 30
350.000000
 11
-225.000000
 21
-268.510000
 31
-140.000000
  0
LINE
  8
FLEXIT3
  6
CONTINUOUS
 10
225.000000
 20
-268.510000
 30
350.000000
 11
225.000000
 21
-268.510000
 31
-140.000000
  0
LINE
  8
FLEXIT3
  6
CONTINUOUS
 10
-225.000000
 20
-268.510000
 30
-140.000000
 11
-90.000000
 21
-268.510000
 31
-140.000000
  0
LINE
  8
FLEXIT3
  6
CONTINUOUS
 10
225.000000
 20
-268.510000
 30
-140.000000
 11
90.000000
 21
-268.510000
 31
-140.000000
  0
POLYLINE
  8
FLEXIT3
  6
CONTINUOUS
 70
41
 10
0.000000
 20
0.000000
 30
0.000000
 66
1
  0
VERTEX
  8
FLEXIT3
  6
CONTINUOUS
 70
32
 10
-90.000000
 20
-268.510000
 30
-350.000000
  0
VERTEX
  8
FLEXIT3
  6
CONTINUOUS
 70
32
 10
-90.000000
 20
-268.510000
 30
-140.000000
  0
VERTEX
  8
FLEXIT3
  6
CONTINUOUS
 70
32
 10
-180.000000
 20
-268.510000
 30
-140.000000
  0
VERTEX
  8
FLEXIT3
  6
CONTINUOUS
 70
32
 10
-180.000000
 20
-268.510000
 30
-350.000000
  0
SEQEND
  8
FLEXIT3
  6
CONTINUOUS
  0
LINE
  8
FLEXIT3
  6
CONTINUOUS
 10
-90.000000
 20
-268.510000
 30
-350.000000
 11
-180.000000
 21
-268.510000
 31
-297.500000
  0
LINE
  8
FLEXIT3
  6
CONTINUOUS
 10
-90.000000
 20
-268.510000
 30
-245.000000
 11
-180.000000
 21
-268.510000
 31
-297.500000
  0
LINE
  8
FLEXIT3
  6
CONTINUOUS
 10
-90.000000
 20
-268.510000
 30
-245.000000
 11
-180.000000
 21
-268.510000
 31
-192.500000
  0
LINE
  8
FLEXIT3
  6
CONTINUOUS
 10
-90.000000
 20
-268.510000
 30
-140.000000
 11
-180.000000
 21
-268.510000
 31
-192.500000
  0
POLYLINE
  8
FLEXIT3
  6
CONTINUOUS
 70
41
 10
0.000000
 20
0.000000
 30
0.000000
 66
1
  0
VERTEX
  8
FLEXIT3
  6
CONTINUOUS
 70
32
 10
180.000000
 20
-268.510000
 30
-140.000000
  0
VERTEX
  8
FLEXIT3
  6
CONTINUOUS
 70
32
 10
180.000000
 20
-268.510000
 30
70.000000
  0
VERTEX
  8
FLEXIT3
  6
CONTINUOUS
 70
32
 10
90.000000
 20
-268.510000
 30
70.000000
  0
VERTEX
  8
FLEXIT3
  6
CONTINUOUS
 70
32
 10
90.000000
 20
-268.510000
 30
-140.000000
  0
SEQEND
  8
FLEXIT3
  6
CONTINUOUS
  0
LINE
  8
FLEXIT3
  6
CONTINUOUS
 10
180.000000
 20
-268.510000
 30
-140.000000
 11
90.000000
 21
-268.510000
 31
-87.500000
  0
LINE
  8
FLEXIT3
  6
CONTINUOUS
 10
180.000000
 20
-268.510000
 30
-35.000000
 11
90.000000
 21
-268.510000
 31
-87.500000
  0
LINE
  8
FLEXIT3
  6
CONTINUOUS
 10
180.000000
 20
-268.510000
 30
-35.000000
 11
90.000000
 21
-268.510000
 31
17.500000
  0
LINE
  8
FLEXIT3
  6
CONTINUOUS
 10
180.000000
 20
-268.510000
 30
70.000000
 11
90.000000
 21
-268.510000
 31
17.500000
  0
POLYLINE
  8
FLEXIT3
  6
CONTINUOUS
 70
41
 10
0.000000
 20
0.000000
 30
0.000000
 66
1
  0
VERTEX
  8
FLEXIT3
  6
CONTINUOUS
 70
32
 10
0.000000
 20
-268.510000
 30
350.000000
  0
VERTEX
  8
FLEXIT3
  6
CONTINUOUS
 70
32
 10
-225.000000
 20
-268.510000
 30
350.000000
  0
VERTEX
  8
FLEXIT3
  6
CONTINUOUS
 70
32
 10
-225.000000
 20
-268.510000
 30
262.500000
  0
VERTEX
  8
FLEXIT3
  6
CONTINUOUS
 70
32
 10
0.000000
 20
-268.510000
 30
262.500000
  0
SEQEND
  8
FLEXIT3
  6
CONTINUOUS
  0
CIRCLE
  8
FLEXIT3
  6
CONTINUOUS
 10
112.500000
 20
306.250000
 30
-268.510000
 40
32.812500
210
0.000000
220
1.000000
230
0.000000
  0
LINE
  8
FLEXIT3
  6
CONTINUOUS
 10
-112.500000
 20
-268.510000
 30
328.125000
 11
-112.500000
 21
-268.510000
 31
284.375000
  0
LINE
  8
FLEXIT3
  6
CONTINUOUS
 10
-90.625000
 20
-268.510000
 30
306.250000
 11
-134.375000
 21
-268.510000
 31
306.250000
  0
POLYLINE
  8
FLEXIT3
  6
CONTINUOUS
 70
41
 10
0.000000
 20
0.000000
 30
0.000000
 66
1
  0
VERTEX
  8
FLEXIT3
  6
CONTINUOUS
 70
32
 10
-225.000000
 20
-268.510000
 30
87.500000
  0
VERTEX
  8
FLEXIT3
  6
CONTINUOUS
 70
32
 10
0.000000
 20
-268.510000
 30
87.500000
  0
VERTEX
  8
FLEXIT3
  6
CONTINUOUS
 70
32
 10
0.000000
 20
-268.510000
 30
262.500000
  0
VERTEX
  8
FLEXIT3
  6
CONTINUOUS
 70
32
 10
-225.000000
 20
-268.510000
 30
262.500000
  0
SEQEND
  8
FLEXIT3
  6
CONTINUOUS
  0
CIRCLE
  8
FLEXIT3
  6
CONTINUOUS
 10
112.500000
 20
175.000000
 30
-268.510000
 40
65.625000
210
0.000000
220
1.000000
230
0.000000
  0
LINE
  8
FLEXIT3
  6
CONTINUOUS
 10
-112.500000
 20
-268.510000
 30
240.625000
 11
-55.667083
 21
-268.510000
 31
142.187500
  0
LINE
  8
FLEXIT3
  6
CONTINUOUS
 10
-55.667083
 20
-268.510000
 30
142.187500
 11
-169.332917
 21
-268.510000
 31
142.187500
  0
LINE
  8
FLEXIT3
  6
CONTINUOUS
 10
-169.332917
 20
-268.510000
 30
142.187500
 11
-112.500000
 21
-268.510000
 31
240.625000
  0
POLYLINE
  8
FLEXIT3
  6
CONTINUOUS
 70
41
 10
0.000000
 20
0.000000
 30
0.000000
 66
1
  0
VERTEX
  8
FLEXIT3
  6
CONTINUOUS
 70
32
 10
225.000000
 20
-268.510000
 30
87.500000
  0
VERTEX
  8
FLEXIT3
  6
CONTINUOUS
 70
32
 10
450.000000
 20
-268.510000
 30
87.500000
  0
VERTEX
  8
FLEXIT3
  6
CONTINUOUS
 70
32
 10
450.000000
 20
-268.510000
 30
262.500000
  0
VERTEX
  8
FLEXIT3
  6
CONTINUOUS
 70
32
 10
225.000000
 20
-268.510000
 30
262.500000
  0
SEQEND
  8
FLEXIT3
  6
CONTINUOUS
  0
CIRCLE
  8
FLEXIT3
  6
CONTINUOUS
 10
-337.500000
 20
175.000000
 30
-268.510000
 40
65.625000
210
0.000000
220
1.000000
230
0.000000
  0
LINE
  8
FLEXIT3
  6
CONTINUOUS
 10
337.500000
 20
-268.510000
 30
240.625000
 11
394.332917
 21
-268.510000
 31
142.187500
  0
LINE
  8
FLEXIT3
  6
CONTINUOUS
 10
394.332917
 20
-268.510000
 30
142.187500
 11
280.667083
 21
-268.510000
 31
142.187500
  0
LINE
  8
FLEXIT3
  6
CONTINUOUS
 10
280.667083
 20
-268.510000
 30
142.187500
 11
337.500000
 21
-268.510000
 31
240.625000
  0
LINE
  8
FLEXIT3
  6
CONTINUOUS
 10
450.000000
 20
-238.500000
 30
350.010000
 11
-450.000000
 21
-238.500000
 31
350.010000
  0
LINE
  8
FLEXIT3
  6
CONTINUOUS
 10
450.000000
 20
-238.500000
 30
-350.010000
 11
-450.000000
 21
-238.500000
 31
-350.010000
  0
3DFACE
  8
FLEXIT2
  6
CONTINUOUS
 10
249.000000
 20
-112.500000
 30
350.000000
 11
255.089637
 21
-143.114675
 31
350.000000
 12
255.089637
 22
-143.114675
 32
380.000000
 13
249.000000
 23
-112.500000
 33
380.000000
  0
3DFACE
  8
FLEXIT2
  6
CONTINUOUS
 10
255.089637
 20
-143.114675
 30
350.000000
 11
272.431458
 21
-169.068542
 31
350.000000
 12
272.431458
 22
-169.068542
 32
380.000000
 13
255.089637
 23
-143.114675
 33
380.000000
  0
3DFACE
  8
FLEXIT2
  6
CONTINUOUS
 10
272.431458
 20
-169.068542
 30
350.000000
 11
298.385325
 21
-186.410363
 31
350.000000
 12
298.385325
 22
-186.410363
 32
380.000000
 13
272.431458
 23
-169.068542
 33
380.000000
  0
3DFACE
  8
FLEXIT2
  6
CONTINUOUS
 10
298.385325
 20
-186.410363
 30
350.000000
 11
329.000000
 21
-192.500000
 31
350.000000
 12
329.000000
 22
-192.500000
 32
380.000000
 13
298.385325
 23
-186.410363
 33
380.000000
  0
3DFACE
  8
FLEXIT2
  6
CONTINUOUS
 10
329.000000
 20
-192.500000
 30
350.000000
 11
359.614675
 21
-186.410363
 31
350.000000
 12
359.614675
 22
-186.410363
 32
380.000000
 13
329.000000
 23
-192.500000
 33
380.000000
  0
3DFACE
  8
FLEXIT2
  6
CONTINUOUS
 10
359.614675
 20
-186.410363
 30
350.000000
 11
385.568542
 21
-169.068542
 31
350.000000
 12
385.568542
 22
-169.068542
 32
380.000000
 13
359.614675
 23
-186.410363
 33
380.000000
  0
3DFACE
  8
FLEXIT2
  6
CONTINUOUS
 10
385.568542
 20
-169.068542
 30
350.000000
 11
402.910363
 21
-143.114675
 31
350.000000
 12
402.910363
 22
-143.114675
 32
380.000000
 13
385.568542
 23
-169.068542
 33
380.000000
  0
3DFACE
  8
FLEXIT2
  6
CONTINUOUS
 10
402.910363
 20
-143.114675
 30
350.000000
 11
409.000000
 21
-112.500000
 31
350.000000
 12
409.000000
 22
-112.500000
 32
380.000000
 13
402.910363
 23
-143.114675
 33
380.000000
  0
3DFACE
  8
FLEXIT2
  6
CONTINUOUS
 10
409.000000
 20
-112.500000
 30
350.000000
 11
402.910363
 21
-81.885325
 31
350.000000
 12
402.910363
 22
-81.885325
 32
380.000000
 13
409.000000
 23
-112.500000
 33
380.000000
  0
3DFACE
  8
FLEXIT2
  6
CONTINUOUS
 10
402.910363
 20
-81.885325
 30
350.000000
 11
385.568542
 21
-55.931458
 31
350.000000
 12
385.568542
 22
-55.931458
 32
380.000000
 13
402.910363
 23
-81.885325
 33
380.000000
  0
3DFACE
  8
FLEXIT2
  6
CONTINUOUS
 10
385.568542
 20
-55.931458
 30
350.000000
 11
359.614675
 21
-38.589637
 31
350.000000
 12
359.614675
 22
-38.589637
 32
380.000000
 13
385.568542
 23
-55.931458
 33
380.000000
  0
3DFACE
  8
FLEXIT2
  6
CONTINUOUS
 10
359.614675
 20
-38.589637
 30
350.000000
 11
329.000000
 21
-32.500000
 31
350.000000
 12
329.000000
 22
-32.500000
 32
380.000000
 13
359.614675
 23
-38.589637
 33
380.000000
  0
3DFACE
  8
FLEXIT2
  6
CONTINUOUS
 10
329.000000
 20
-32.500000
 30
350.000000
 11
298.385325
 21
-38.589637
 31
350.000000
 12
298.385325
 22
-38.589637
 32
380.000000
 13
329.000000
 23
-32.500000
 33
380.000000
  0
3DFACE
  8
FLEXIT2
  6
CONTINUOUS
 10
298.385325
 20
-38.589637
 30
350.000000
 11
272.431458
 21
-55.931458
 31
350.000000
 12
272.431458
 22
-55.931458
 32
380.000000
 13
298.385325
 23
-38.589637
 33
380.000000
  0
3DFACE
  8
FLEXIT2
  6
CONTINUOUS
 10
272.431458
 20
-55.931458
 30
350.000000
 11
255.089637
 21
-81.885325
 31
350.000000
 12
255.089637
 22
-81.885325
 32
380.000000
 13
272.431458
 23
-55.931458
 33
380.000000
  0
3DFACE
  8
FLEXIT2
  6
CONTINUOUS
 10
255.089637
 20
-81.885325
 30
350.000000
 11
249.000000
 21
-112.500000
 31
350.000000
 12
249.000000
 22
-112.500000
 32
380.000000
 13
255.089637
 23
-81.885325
 33
380.000000
  0
3DFACE
  8
FLEXIT2
  6
CONTINUOUS
 10
-409.000000
 20
-112.500000
 30
350.000000
 11
-402.910363
 21
-143.114675
 31
350.000000
 12
-402.910363
 22
-143.114675
 32
380.000000
 13
-409.000000
 23
-112.500000
 33
380.000000
  0
3DFACE
  8
FLEXIT2
  6
CONTINUOUS
 10
-402.910363
 20
-143.114675
 30
350.000000
 11
-385.568542
 21
-169.068542
 31
350.000000
 12
-385.568542
 22
-169.068542
 32
380.000000
 13
-402.910363
 23
-143.114675
 33
380.000000
  0
3DFACE
  8
FLEXIT2
  6
CONTINUOUS
 10
-385.568542
 20
-169.068542
 30
350.000000
 11
-359.614675
 21
-186.410363
 31
350.000000
 12
-359.614675
 22
-186.410363
 32
380.000000
 13
-385.568542
 23
-169.068542
 33
380.000000
  0
3DFACE
  8
FLEXIT2
  6
CONTINUOUS
 10
-359.614675
 20
-186.410363
 30
350.000000
 11
-329.000000
 21
-192.500000
 31
350.000000
 12
-329.000000
 22
-192.500000
 32
380.000000
 13
-359.614675
 23
-186.410363
 33
380.000000
  0
3DFACE
  8
FLEXIT2
  6
CONTINUOUS
 10
-329.000000
 20
-192.500000
 30
350.000000
 11
-298.385325
 21
-186.410363
 31
350.000000
 12
-298.385325
 22
-186.410363
 32
380.000000
 13
-329.000000
 23
-192.500000
 33
380.000000
  0
3DFACE
  8
FLEXIT2
  6
CONTINUOUS
 10
-298.385325
 20
-186.410363
 30
350.000000
 11
-272.431458
 21
-169.068542
 31
350.000000
 12
-272.431458
 22
-169.068542
 32
380.000000
 13
-298.385325
 23
-186.410363
 33
380.000000
  0
3DFACE
  8
FLEXIT2
  6
CONTINUOUS
 10
-272.431458
 20
-169.068542
 30
350.000000
 11
-255.089637
 21
-143.114675
 31
350.000000
 12
-255.089637
 22
-143.114675
 32
380.000000
 13
-272.431458
 23
-169.068542
 33
380.000000
  0
3DFACE
  8
FLEXIT2
  6
CONTINUOUS
 10
-255.089637
 20
-143.114675
 30
350.000000
 11
-249.000000
 21
-112.500000
 31
350.000000
 12
-249.000000
 22
-112.500000
 32
380.000000
 13
-255.089637
 23
-143.114675
 33
380.000000
  0
3DFACE
  8
FLEXIT2
  6
CONTINUOUS
 10
-249.000000
 20
-112.500000
 30
350.000000
 11
-255.089637
 21
-81.885325
 31
350.000000
 12
-255.089637
 22
-81.885325
 32
380.000000
 13
-249.000000
 23
-112.500000
 33
380.000000
  0
3DFACE
  8
FLEXIT2
  6
CONTINUOUS
 10
-255.089637
 20
-81.885325
 30
350.000000
 11
-272.431458
 21
-55.931458
 31
350.000000
 12
-272.431458
 22
-55.931458
 32
380.000000
 13
-255.089637
 23
-81.885325
 33
380.000000
  0
3DFACE
  8
FLEXIT2
  6
CONTINUOUS
 10
-272.431458
 20
-55.931458
 30
350.000000
 11
-298.385325
 21
-38.589637
 31
350.000000
 12
-298.385325
 22
-38.589637
 32
380.000000
 13
-272.431458
 23
-55.931458
 33
380.000000
  0
3DFACE
  8
FLEXIT2
  6
CONTINUOUS
 10
-298.385325
 20
-38.589637
 30
350.000000
 11
-329.000000
 21
-32.500000
 31
350.000000
 12
-329.000000
 22
-32.500000
 32
380.000000
 13
-298.385325
 23
-38.589637
 33
380.000000
  0
3DFACE
  8
FLEXIT2
  6
CONTINUOUS
 10
-329.000000
 20
-32.500000
 30
350.000000
 11
-359.614675
 21
-38.589637
 31
350.000000
 12
-359.614675
 22
-38.589637
 32
380.000000
 13
-329.000000
 23
-32.500000
 33
380.000000
  0
3DFACE
  8
FLEXIT2
  6
CONTINUOUS
 10
-359.614675
 20
-38.589637
 30
350.000000
 11
-385.568542
 21
-55.931458
 31
350.000000
 12
-385.568542
 22
-55.931458
 32
380.000000
 13
-359.614675
 23
-38.589637
 33
380.000000
  0
3DFACE
  8
FLEXIT2
  6
CONTINUOUS
 10
-385.568542
 20
-55.931458
 30
350.000000
 11
-402.910363
 21
-81.885325
 31
350.000000
 12
-402.910363
 22
-81.885325
 32
380.000000
 13
-385.568542
 23
-55.931458
 33
380.000000
  0
3DFACE
  8
FLEXIT2
  6
CONTINUOUS
 10
-402.910363
 20
-81.885325
 30
350.000000
 11
-409.000000
 21
-112.500000
 31
350.000000
 12
-409.000000
 22
-112.500000
 32
380.000000
 13
-402.910363
 23
-81.885325
 33
380.000000
  0
3DFACE
  8
FLEXIT2
  6
CONTINUOUS
 10
-409.000000
 20
127.500000
 30
350.000000
 11
-402.910363
 21
96.885325
 31
350.000000
 12
-402.910363
 22
96.885325
 32
380.000000
 13
-409.000000
 23
127.500000
 33
380.000000
  0
3DFACE
  8
FLEXIT2
  6
CONTINUOUS
 10
-402.910363
 20
96.885325
 30
350.000000
 11
-385.568542
 21
70.931458
 31
350.000000
 12
-385.568542
 22
70.931458
 32
380.000000
 13
-402.910363
 23
96.885325
 33
380.000000
  0
3DFACE
  8
FLEXIT2
  6
CONTINUOUS
 10
-385.568542
 20
70.931458
 30
350.000000
 11
-359.614675
 21
53.589637
 31
350.000000
 12
-359.614675
 22
53.589637
 32
380.000000
 13
-385.568542
 23
70.931458
 33
380.000000
  0
3DFACE
  8
FLEXIT2
  6
CONTINUOUS
 10
-359.614675
 20
53.589637
 30
350.000000
 11
-329.000000
 21
47.500000
 31
350.000000
 12
-329.000000
 22
47.500000
 32
380.000000
 13
-359.614675
 23
53.589637
 33
380.000000
  0
3DFACE
  8
FLEXIT2
  6
CONTINUOUS
 10
-329.000000
 20
47.500000
 30
350.000000
 11
-298.385325
 21
53.589637
 31
350.000000
 12
-298.385325
 22
53.589637
 32
380.000000
 13
-329.000000
 23
47.500000
 33
380.000000
  0
3DFACE
  8
FLEXIT2
  6
CONTINUOUS
 10
-298.385325
 20
53.589637
 30
350.000000
 11
-272.431458
 21
70.931458
 31
350.000000
 12
-272.431458
 22
70.931458
 32
380.000000
 13
-298.385325
 23
53.589637
 33
380.000000
  0
3DFACE
  8
FLEXIT2
  6
CONTINUOUS
 10
-272.431458
 20
70.931458
 30
350.000000
 11
-255.089637
 21
96.885325
 31
350.000000
 12
-255.089637
 22
96.885325
 32
380.000000
 13
-272.431458
 23
70.931458
 33
380.000000
  0
3DFACE
  8
FLEXIT2
  6
CONTINUOUS
 10
-255.089637
 20
96.885325
 30
350.000000
 11
-249.000000
 21
127.500000
 31
350.000000
 12
-249.000000
 22
127.500000
 32
380.000000
 13
-255.089637
 23
96.885325
 33
380.000000
  0
3DFACE
  8
FLEXIT2
  6
CONTINUOUS
 10
-249.000000
 20
127.500000
 30
350.000000
 11
-255.089637
 21
158.114675
 31
350.000000
 12
-255.089637
 22
158.114675
 32
380.000000
 13
-249.000000
 23
127.500000
 33
380.000000
  0
3DFACE
  8
FLEXIT2
  6
CONTINUOUS
 10
-255.089637
 20
158.114675
 30
350.000000
 11
-272.431458
 21
184.068542
 31
350.000000
 12
-272.431458
 22
184.068542
 32
380.000000
 13
-255.089637
 23
158.114675
 33
380.000000
  0
3DFACE
  8
FLEXIT2
  6
CONTINUOUS
 10
-272.431458
 20
184.068542
 30
350.000000
 11
-298.385325
 21
201.410363
 31
350.000000
 12
-298.385325
 22
201.410363
 32
380.000000
 13
-272.431458
 23
184.068542
 33
380.000000
  0
3DFACE
  8
FLEXIT2
  6
CONTINUOUS
 10
-298.385325
 20
201.410363
 30
350.000000
 11
-329.000000
 21
207.500000
 31
350.000000
 12
-329.000000
 22
207.500000
 32
380.000000
 13
-298.385325
 23
201.410363
 33
380.000000
  0
3DFACE
  8
FLEXIT2
  6
CONTINUOUS
 10
-329.000000
 20
207.500000
 30
350.000000
 11
-359.614675
 21
201.410363
 31
350.000000
 12
-359.614675
 22
201.410363
 32
380.000000
 13
-329.000000
 23
207.500000
 33
380.000000
  0
3DFACE
  8
FLEXIT2
  6
CONTINUOUS
 10
-359.614675
 20
201.410363
 30
350.000000
 11
-385.568542
 21
184.068542
 31
350.000000
 12
-385.568542
 22
184.068542
 32
380.000000
 13
-359.614675
 23
201.410363
 33
380.000000
  0
3DFACE
  8
FLEXIT2
  6
CONTINUOUS
 10
-385.568542
 20
184.068542
 30
350.000000
 11
-402.910363
 21
158.114675
 31
350.000000
 12
-402.910363
 22
158.114675
 32
380.000000
 13
-385.568542
 23
184.068542
 33
380.000000
  0
3DFACE
  8
FLEXIT2
  6
CONTINUOUS
 10
-402.910363
 20
158.114675
 30
350.000000
 11
-409.000000
 21
127.500000
 31
350.000000
 12
-409.000000
 22
127.500000
 32
380.000000
 13
-402.910363
 23
158.114675
 33
380.000000
  0
3DFACE
  8
FLEXIT2
  6
CONTINUOUS
 10
249.000000
 20
127.500000
 30
350.000000
 11
255.089637
 21
96.885325
 31
350.000000
 12
255.089637
 22
96.885325
 32
380.000000
 13
249.000000
 23
127.500000
 33
380.000000
  0
3DFACE
  8
FLEXIT2
  6
CONTINUOUS
 10
255.089637
 20
96.885325
 30
350.000000
 11
272.431458
 21
70.931458
 31
350.000000
 12
272.431458
 22
70.931458
 32
380.000000
 13
255.089637
 23
96.885325
 33
380.000000
  0
3DFACE
  8
FLEXIT2
  6
CONTINUOUS
 10
272.431458
 20
70.931458
 30
350.000000
 11
298.385325
 21
53.589637
 31
350.000000
 12
298.385325
 22
53.589637
 32
380.000000
 13
272.431458
 23
70.931458
 33
380.000000
  0
3DFACE
  8
FLEXIT2
  6
CONTINUOUS
 10
298.385325
 20
53.589637
 30
350.000000
 11
329.000000
 21
47.500000
 31
350.000000
 12
329.000000
 22
47.500000
 32
380.000000
 13
298.385325
 23
53.589637
 33
380.000000
  0
3DFACE
  8
FLEXIT2
  6
CONTINUOUS
 10
329.000000
 20
47.500000
 30
350.000000
 11
359.614675
 21
53.589637
 31
350.000000
 12
359.614675
 22
53.589637
 32
380.000000
 13
329.000000
 23
47.500000
 33
380.000000
  0
3DFACE
  8
FLEXIT2
  6
CONTINUOUS
 10
359.614675
 20
53.589637
 30
350.000000
 11
385.568542
 21
70.931458
 31
350.000000
 12
385.568542
 22
70.931458
 32
380.000000
 13
359.614675
 23
53.589637
 33
380.000000
  0
3DFACE
  8
FLEXIT2
  6
CONTINUOUS
 10
385.568542
 20
70.931458
 30
350.000000
 11
402.910363
 21
96.885325
 31
350.000000
 12
402.910363
 22
96.885325
 32
380.000000
 13
385.568542
 23
70.931458
 33
380.000000
  0
3DFACE
  8
FLEXIT2
  6
CONTINUOUS
 10
402.910363
 20
96.885325
 30
350.000000
 11
409.000000
 21
127.500000
 31
350.000000
 12
409.000000
 22
127.500000
 32
380.000000
 13
402.910363
 23
96.885325
 33
380.000000
  0
3DFACE
  8
FLEXIT2
  6
CONTINUOUS
 10
409.000000
 20
127.500000
 30
350.000000
 11
402.910363
 21
158.114675
 31
350.000000
 12
402.910363
 22
158.114675
 32
380.000000
 13
409.000000
 23
127.500000
 33
380.000000
  0
3DFACE
  8
FLEXIT2
  6
CONTINUOUS
 10
402.910363
 20
158.114675
 30
350.000000
 11
385.568542
 21
184.068542
 31
350.000000
 12
385.568542
 22
184.068542
 32
380.000000
 13
402.910363
 23
158.114675
 33
380.000000
  0
3DFACE
  8
FLEXIT2
  6
CONTINUOUS
 10
385.568542
 20
184.068542
 30
350.000000
 11
359.614675
 21
201.410363
 31
350.000000
 12
359.614675
 22
201.410363
 32
380.000000
 13
385.568542
 23
184.068542
 33
380.000000
  0
3DFACE
  8
FLEXIT2
  6
CONTINUOUS
 10
359.614675
 20
201.410363
 30
350.000000
 11
329.000000
 21
207.500000
 31
350.000000
 12
329.000000
 22
207.500000
 32
380.000000
 13
359.614675
 23
201.410363
 33
380.000000
  0
3DFACE
  8
FLEXIT2
  6
CONTINUOUS
 10
329.000000
 20
207.500000
 30
350.000000
 11
298.385325
 21
201.410363
 31
350.000000
 12
298.385325
 22
201.410363
 32
380.000000
 13
329.000000
 23
207.500000
 33
380.000000
  0
3DFACE
  8
FLEXIT2
  6
CONTINUOUS
 10
298.385325
 20
201.410363
 30
350.000000
 11
272.431458
 21
184.068542
 31
350.000000
 12
272.431458
 22
184.068542
 32
380.000000
 13
298.385325
 23
201.410363
 33
380.000000
  0
3DFACE
  8
FLEXIT2
  6
CONTINUOUS
 10
272.431458
 20
184.068542
 30
350.000000
 11
255.089637
 21
158.114675
 31
350.000000
 12
255.089637
 22
158.114675
 32
380.000000
 13
272.431458
 23
184.068542
 33
380.000000
  0
3DFACE
  8
FLEXIT2
  6
CONTINUOUS
 10
255.089637
 20
158.114675
 30
350.000000
 11
249.000000
 21
127.500000
 31
350.000000
 12
249.000000
 22
127.500000
 32
380.000000
 13
255.089637
 23
158.114675
 33
380.000000
  0
3DFACE
  8
FLEXIT2
  6
CONTINUOUS
 10
412.000000
 20
-117.500000
 30
-350.000000
 11
405.910363
 21
-148.114675
 31
-350.000000
 12
405.910363
 22
-148.114675
 32
-380.000000
 13
412.000000
 23
-117.500000
 33
-380.000000
  0
3DFACE
  8
FLEXIT2
  6
CONTINUOUS
 10
405.910363
 20
-148.114675
 30
-350.000000
 11
388.568542
 21
-174.068542
 31
-350.000000
 12
388.568542
 22
-174.068542
 32
-380.000000
 13
405.910363
 23
-148.114675
 33
-380.000000
  0
3DFACE
  8
FLEXIT2
  6
CONTINUOUS
 10
388.568542
 20
-174.068542
 30
-350.000000
 11
362.614675
 21
-191.410363
 31
-350.000000
 12
362.614675
 22
-191.410363
 32
-380.000000
 13
388.568542
 23
-174.068542
 33
-380.000000
  0
3DFACE
  8
FLEXIT2
  6
CONTINUOUS
 10
362.614675
 20
-191.410363
 30
-350.000000
 11
332.000000
 21
-197.500000
 31
-350.000000
 12
332.000000
 22
-197.500000
 32
-380.000000
 13
362.614675
 23
-191.410363
 33
-380.000000
  0
3DFACE
  8
FLEXIT2
  6
CONTINUOUS
 10
332.000000
 20
-197.500000
 30
-350.000000
 11
301.385325
 21
-191.410363
 31
-350.000000
 12
301.385325
 22
-191.410363
 32
-380.000000
 13
332.000000
 23
-197.500000
 33
-380.000000
  0
3DFACE
  8
FLEXIT2
  6
CONTINUOUS
 10
301.385325
 20
-191.410363
 30
-350.000000
 11
275.431458
 21
-174.068542
 31
-350.000000
 12
275.431458
 22
-174.068542
 32
-380.000000
 13
301.385325
 23
-191.410363
 33
-380.000000
  0
3DFACE
  8
FLEXIT2
  6
CONTINUOUS
 10
275.431458
 20
-174.068542
 30
-350.000000
 11
258.089637
 21
-148.114675
 31
-350.000000
 12
258.089637
 22
-148.114675
 32
-380.000000
 13
275.431458
 23
-174.068542
 33
-380.000000
  0
3DFACE
  8
FLEXIT2
  6
CONTINUOUS
 10
258.089637
 20
-148.114675
 30
-350.000000
 11
252.000000
 21
-117.500000
 31
-350.000000
 12
252.000000
 22
-117.500000
 32
-380.000000
 13
258.089637
 23
-148.114675
 33
-380.000000
  0
3DFACE
  8
FLEXIT2
  6
CONTINUOUS
 10
252.000000
 20
-117.500000
 30
-350.000000
 11
258.089637
 21
-86.885325
 31
-350.000000
 12
258.089637
 22
-86.885325
 32
-380.000000
 13
252.000000
 23
-117.500000
 33
-380.000000
  0
3DFACE
  8
FLEXIT2
  6
CONTINUOUS
 10
258.089637
 20
-86.885325
 30
-350.000000
 11
275.431458
 21
-60.931458
 31
-350.000000
 12
275.431458
 22
-60.931458
 32
-380.000000
 13
258.089637
 23
-86.885325
 33
-380.000000
  0
3DFACE
  8
FLEXIT2
  6
CONTINUOUS
 10
275.431458
 20
-60.931458
 30
-350.000000
 11
301.385325
 21
-43.589637
 31
-350.000000
 12
301.385325
 22
-43.589637
 32
-380.000000
 13
275.431458
 23
-60.931458
 33
-380.000000
  0
3DFACE
  8
FLEXIT2
  6
CONTINUOUS
 10
301.385325
 20
-43.589637
 30
-350.000000
 11
332.000000
 21
-37.500000
 31
-350.000000
 12
332.000000
 22
-37.500000
 32
-380.000000
 13
301.385325
 23
-43.589637
 33
-380.000000
  0
3DFACE
  8
FLEXIT2
  6
CONTINUOUS
 10
332.000000
 20
-37.500000
 30
-350.000000
 11
362.614675
 21
-43.589637
 31
-350.000000
 12
362.614675
 22
-43.589637
 32
-380.000000
 13
332.000000
 23
-37.500000
 33
-380.000000
  0
3DFACE
  8
FLEXIT2
  6
CONTINUOUS
 10
362.614675
 20
-43.589637
 30
-350.000000
 11
388.568542
 21
-60.931458
 31
-350.000000
 12
388.568542
 22
-60.931458
 32
-380.000000
 13
362.614675
 23
-43.589637
 33
-380.000000
  0
3DFACE
  8
FLEXIT2
  6
CONTINUOUS
 10
388.568542
 20
-60.931458
 30
-350.000000
 11
405.910363
 21
-86.885325
 31
-350.000000
 12
405.910363
 22
-86.885325
 32
-380.000000
 13
388.568542
 23
-60.931458
 33
-380.000000
  0
3DFACE
  8
FLEXIT2
  6
CONTINUOUS
 10
405.910363
 20
-86.885325
 30
-350.000000
 11
412.000000
 21
-117.500000
 31
-350.000000
 12
412.000000
 22
-117.500000
 32
-380.000000
 13
405.910363
 23
-86.885325
 33
-380.000000
  0
3DFACE
  8
FLEXIT2
  6
CONTINUOUS
 10
-252.000000
 20
107.500000
 30
-350.000000
 11
-258.089637
 21
76.885325
 31
-350.000000
 12
-258.089637
 22
76.885325
 32
-380.000000
 13
-252.000000
 23
107.500000
 33
-380.000000
  0
3DFACE
  8
FLEXIT2
  6
CONTINUOUS
 10
-258.089637
 20
76.885325
 30
-350.000000
 11
-275.431458
 21
50.931458
 31
-350.000000
 12
-275.431458
 22
50.931458
 32
-380.000000
 13
-258.089637
 23
76.885325
 33
-380.000000
  0
3DFACE
  8
FLEXIT2
  6
CONTINUOUS
 10
-275.431458
 20
50.931458
 30
-350.000000
 11
-301.385325
 21
33.589637
 31
-350.000000
 12
-301.385325
 22
33.589637
 32
-380.000000
 13
-275.431458
 23
50.931458
 33
-380.000000
  0
3DFACE
  8
FLEXIT2
  6
CONTINUOUS
 10
-301.385325
 20
33.589637
 30
-350.000000
 11
-332.000000
 21
27.500000
 31
-350.000000
 12
-332.000000
 22
27.500000
 32
-380.000000
 13
-301.385325
 23
33.589637
 33
-380.000000
  0
3DFACE
  8
FLEXIT2
  6
CONTINUOUS
 10
-332.000000
 20
27.500000
 30
-350.000000
 11
-362.614675
 21
33.589637
 31
-350.000000
 12
-362.614675
 22
33.589637
 32
-380.000000
 13
-332.000000
 23
27.500000
 33
-380.000000
  0
3DFACE
  8
FLEXIT2
  6
CONTINUOUS
 10
-362.614675
 20
33.589637
 30
-350.000000
 11
-388.568542
 21
50.931458
 31
-350.000000
 12
-388.568542
 22
50.931458
 32
-380.000000
 13
-362.614675
 23
33.589637
 33
-380.000000
  0
3DFACE
  8
FLEXIT2
  6
CONTINUOUS
 10
-388.568542
 20
50.931458
 30
-350.000000
 11
-405.910363
 21
76.885325
 31
-350.000000
 12
-405.910363
 22
76.885325
 32
-380.000000
 13
-388.568542
 23
50.931458
 33
-380.000000
  0
3DFACE
  8
FLEXIT2
  6
CONTINUOUS
 10
-405.910363
 20
76.885325
 30
-350.000000
 11
-412.000000
 21
107.500000
 31
-350.000000
 12
-412.000000
 22
107.500000
 32
-380.000000
 13
-405.910363
 23
76.885325
 33
-380.000000
  0
3DFACE
  8
FLEXIT2
  6
CONTINUOUS
 10
-412.000000
 20
107.500000
 30
-350.000000
 11
-405.910363
 21
138.114675
 31
-350.000000
 12
-405.910363
 22
138.114675
 32
-380.000000
 13
-412.000000
 23
107.500000
 33
-380.000000
  0
3DFACE
  8
FLEXIT2
  6
CONTINUOUS
 10
-405.910363
 20
138.114675
 30
-350.000000
 11
-388.568542
 21
164.068542
 31
-350.000000
 12
-388.568542
 22
164.068542
 32
-380.000000
 13
-405.910363
 23
138.114675
 33
-380.000000
  0
3DFACE
  8
FLEXIT2
  6
CONTINUOUS
 10
-388.568542
 20
164.068542
 30
-350.000000
 11
-362.614675
 21
181.410363
 31
-350.000000
 12
-362.614675
 22
181.410363
 32
-380.000000
 13
-388.568542
 23
164.068542
 33
-380.000000
  0
3DFACE
  8
FLEXIT2
  6
CONTINUOUS
 10
-362.614675
 20
181.410363
 30
-350.000000
 11
-332.000000
 21
187.500000
 31
-350.000000
 12
-332.000000
 22
187.500000
 32
-380.000000
 13
-362.614675
 23
181.410363
 33
-380.000000
  0
3DFACE
  8
FLEXIT2
  6
CONTINUOUS
 10
-332.000000
 20
187.500000
 30
-350.000000
 11
-301.385325
 21
181.410363
 31
-350.000000
 12
-301.385325
 22
181.410363
 32
-380.000000
 13
-332.000000
 23
187.500000
 33
-380.000000
  0
3DFACE
  8
FLEXIT2
  6
CONTINUOUS
 10
-301.385325
 20
181.410363
 30
-350.000000
 11
-275.431458
 21
164.068542
 31
-350.000000
 12
-275.431458
 22
164.068542
 32
-380.000000
 13
-301.385325
 23
181.410363
 33
-380.000000
  0
3DFACE
  8
FLEXIT2
  6
CONTINUOUS
 10
-275.431458
 20
164.068542
 30
-350.000000
 11
-258.089637
 21
138.114675
 31
-350.000000
 12
-258.089637
 22
138.114675
 32
-380.000000
 13
-275.431458
 23
164.068542
 33
-380.000000
  0
3DFACE
  8
FLEXIT2
  6
CONTINUOUS
 10
-258.089637
 20
138.114675
 30
-350.000000
 11
-252.000000
 21
107.500000
 31
-350.000000
 12
-252.000000
 22
107.500000
 32
-380.000000
 13
-258.089637
 23
138.114675
 33
-380.000000
  0
3DFACE
  8
FLEXIT2
  6
CONTINUOUS
 10
-62.500000
 20
57.500000
 30
350.000000
 11
-57.742471
 21
33.582285
 31
350.000000
 12
-57.742471
 22
33.582285
 32
380.000000
 13
-62.500000
 23
57.500000
 33
380.000000
  0
3DFACE
  8
FLEXIT2
  6
CONTINUOUS
 10
-57.742471
 20
33.582285
 30
350.000000
 11
-44.194174
 21
13.305826
 31
350.000000
 12
-44.194174
 22
13.305826
 32
380.000000
 13
-57.742471
 23
33.582285
 33
380.000000
  0
3DFACE
  8
FLEXIT2
  6
CONTINUOUS
 10
-44.194174
 20
13.305826
 30
350.000000
 11
-23.917715
 21
-0.242471
 31
350.000000
 12
-23.917715
 22
-0.242471
 32
380.000000
 13
-44.194174
 23
13.305826
 33
380.000000
  0
3DFACE
  8
FLEXIT2
  6
CONTINUOUS
 10
-23.917715
 20
-0.242471
 30
350.000000
 11
0.000000
 21
-5.000000
 31
350.000000
 12
0.000000
 22
-5.000000
 32
380.000000
 13
-23.917715
 23
-0.242471
 33
380.000000
  0
3DFACE
  8
FLEXIT2
  6
CONTINUOUS
 10
0.000000
 20
-5.000000
 30
350.000000
 11
23.917715
 21
-0.242471
 31
350.000000
 12
23.917715
 22
-0.242471
 32
380.000000
 13
0.000000
 23
-5.000000
 33
380.000000
  0
3DFACE
  8
FLEXIT2
  6
CONTINUOUS
 10
23.917715
 20
-0.242471
 30
350.000000
 11
44.194174
 21
13.305826
 31
350.000000
 12
44.194174
 22
13.305826
 32
380.000000
 13
23.917715
 23
-0.242471
 33
380.000000
  0
3DFACE
  8
FLEXIT2
  6
CONTINUOUS
 10
44.194174
 20
13.305826
 30
350.000000
 11
57.742471
 21
33.582285
 31
350.000000
 12
57.742471
 22
33.582285
 32
380.000000
 13
44.194174
 23
13.305826
 33
380.000000
  0
3DFACE
  8
FLEXIT2
  6
CONTINUOUS
 10
57.742471
 20
33.582285
 30
350.000000
 11
62.500000
 21
57.500000
 31
350.000000
 12
62.500000
 22
57.500000
 32
380.000000
 13
57.742471
 23
33.582285
 33
380.000000
  0
3DFACE
  8
FLEXIT2
  6
CONTINUOUS
 10
62.500000
 20
57.500000
 30
350.000000
 11
57.742471
 21
81.417715
 31
350.000000
 12
57.742471
 22
81.417715
 32
380.000000
 13
62.500000
 23
57.500000
 33
380.000000
  0
3DFACE
  8
FLEXIT2
  6
CONTINUOUS
 10
57.742471
 20
81.417715
 30
350.000000
 11
44.194174
 21
101.694174
 31
350.000000
 12
44.194174
 22
101.694174
 32
380.000000
 13
57.742471
 23
81.417715
 33
380.000000
  0
3DFACE
  8
FLEXIT2
  6
CONTINUOUS
 10
44.194174
 20
101.694174
 30
350.000000
 11
23.917715
 21
115.242471
 31
350.000000
 12
23.917715
 22
115.242471
 32
380.000000
 13
44.194174
 23
101.694174
 33
380.000000
  0
3DFACE
  8
FLEXIT2
  6
CONTINUOUS
 10
23.917715
 20
115.242471
 30
350.000000
 11
0.000000
 21
120.000000
 31
350.000000
 12
0.000000
 22
120.000000
 32
380.000000
 13
23.917715
 23
115.242471
 33
380.000000
  0
3DFACE
  8
FLEXIT2
  6
CONTINUOUS
 10
0.000000
 20
120.000000
 30
350.000000
 11
-23.917715
 21
115.242471
 31
350.000000
 12
-23.917715
 22
115.242471
 32
380.000000
 13
0.000000
 23
120.000000
 33
380.000000
  0
3DFACE
  8
FLEXIT2
  6
CONTINUOUS
 10
-23.917715
 20
115.242471
 30
350.000000
 11
-44.194174
 21
101.694174
 31
350.000000
 12
-44.194174
 22
101.694174
 32
380.000000
 13
-23.917715
 23
115.242471
 33
380.000000
  0
3DFACE
  8
FLEXIT2
  6
CONTINUOUS
 10
-44.194174
 20
101.694174
 30
350.000000
 11
-57.742471
 21
81.417715
 31
350.000000
 12
-57.742471
 22
81.417715
 32
380.000000
 13
-44.194174
 23
101.694174
 33
380.000000
  0
3DFACE
  8
FLEXIT2
  6
CONTINUOUS
 10
-57.742471
 20
81.417715
 30
350.000000
 11
-62.500000
 21
57.500000
 31
350.000000
 12
-62.500000
 22
57.500000
 32
380.000000
 13
-57.742471
 23
81.417715
 33
380.000000
  0
ENDBLK
  0
ENDSEC
  0
SECTION
  2
ENTITIES
  0
INSERT
  8
FLEXIT1
  6
CONTINUOUS
 10
0.000000
 20
0.000000
 30
0.000000
  2
FLEXIT_20140919105600_1
  0
ENDSEC
  0
EOF
